  0
SECTION
  2
HEADER
  9
$ACADVER
  1
AC1015
  9
$ACADMAINTVER
 70
     6
  9
$DWGCODEPAGE
  3
ANSI_1254
  9
$INSBASE
 10
0.0
 20
0.0
 30
0.0
  9
$EXTMIN
 10
0.0
 20
0.0
 30
0.0
  9
$EXTMAX
 10
279.4
 20
215.9
 30
0.0
  9
$LIMMIN
 10
0.0
 20
0.0
  9
$LIMMAX
 10
279.4
 20
215.9
  9
$ORTHOMODE
 70
     0
  9
$REGENMODE
 70
     1
  9
$FILLMODE
 70
     1
  9
$QTEXTMODE
 70
     0
  9
$MIRRTEXT
 70
     1
  9
$LTSCALE
 40
1.0
  9
$ATTMODE
 70
     1
  9
$TEXTSIZE
 40
3.5
  9
$TRACEWID
 40
1.0
  9
$TEXTSTYLE
  7
Standard
  9
$CLAYER
  8
0
  9
$CELTYPE
  6
ByLayer
  9
$CECOLOR
 62
   256
  9
$CELTSCALE
 40
1.0
  9
$DISPSILH
 70
     0
  9
$DIMSCALE
 40
1.0
  9
$DIMASZ
 40
3.5
  9
$DIMEXO
 40
1.0
  9
$DIMDLI
 40
3.75
  9
$DIMRND
 40
0.0
  9
$DIMDLE
 40
0.0
  9
$DIMEXE
 40
1.0
  9
$DIMTP
 40
0.0
  9
$DIMTM
 40
0.0
  9
$DIMTXT
 40
3.5
  9
$DIMCEN
 40
2.5
  9
$DIMTSZ
 40
0.0
  9
$DIMTOL
 70
     0
  9
$DIMLIM
 70
     0
  9
$DIMTIH
 70
     1
  9
$DIMTOH
 70
     1
  9
$DIMSE1
 70
     0
  9
$DIMSE2
 70
     0
  9
$DIMTAD
 70
     1
  9
$DIMZIN
 70
     0
  9
$DIMBLK
  1

  9
$DIMASO
 70
     1
  9
$DIMSHO
 70
     1
  9
$DIMPOST
  1

  9
$DIMAPOST
  1

  9
$DIMALT
 70
     0
  9
$DIMALTD
 70
     3
  9
$DIMALTF
 40
0.0393700787
  9
$DIMLFAC
 40
1.0
  9
$DIMTOFL
 70
     1
  9
$DIMTVP
 40
0.0
  9
$DIMTIX
 70
     0
  9
$DIMSOXD
 70
     0
  9
$DIMSAH
 70
     0
  9
$DIMBLK1
  1

  9
$DIMBLK2
  1

  9
$DIMSTYLE
  2
ISO-25
  9
$DIMCLRD
 70
     0
  9
$DIMCLRE
 70
     0
  9
$DIMCLRT
 70
     0
  9
$DIMTFAC
 40
1.0
  9
$DIMGAP
 40
1.524
  9
$DIMJUST
 70
     0
  9
$DIMSD1
 70
     0
  9
$DIMSD2
 70
     0
  9
$DIMTOLJ
 70
     0
  9
$DIMTZIN
 70
     0
  9
$DIMALTZ
 70
     0
  9
$DIMALTTZ
 70
     0
  9
$DIMUPT
 70
     0
  9
$DIMDEC
 70
     2
  9
$DIMTDEC
 70
     2
  9
$DIMALTU
 70
     2
  9
$DIMALTTD
 70
     3
  9
$DIMTXSTY
  7
Standard
  9
$DIMAUNIT
 70
     0
  9
$DIMADEC
 70
     2
  9
$DIMALTRND
 40
0.0
  9
$DIMAZIN
 70
     0
  9
$DIMDSEP
 70
    44
  9
$DIMATFIT
 70
     3
  9
$DIMFRAC
 70
     0
  9
$DIMLDRBLK
  1

  9
$DIMLUNIT
 70
     2
  9
$DIMLWD
 70
    -2
  9
$DIMLWE
 70
    -2
  9
$DIMTMOVE
 70
     0
  9
$LUNITS
 70
     2
  9
$LUPREC
 70
     2
  9
$SKETCHINC
 40
1.0
  9
$FILLETRAD
 40
10.0
  9
$AUNITS
 70
     0
  9
$AUPREC
 70
     2
  9
$MENU
  1
.
  9
$ELEVATION
 40
0.0
  9
$PELEVATION
 40
0.0
  9
$THICKNESS
 40
0.0
  9
$LIMCHECK
 70
     0
  9
$CHAMFERA
 40
0.0
  9
$CHAMFERB
 40
0.0
  9
$CHAMFERC
 40
0.0
  9
$CHAMFERD
 40
0.0
  9
$SKPOLY
 70
     0
  9
$TDCREATE
 40
2458985.706299051
  9
$TDUCREATE
 40
2458985.581299051
  9
$TDUPDATE
 40
2458985.706299317
  9
$TDUUPDATE
 40
2458985.581299317
  9
$TDINDWG
 40
0.0000000116
  9
$TDUSRTIMER
 40
0.0000000116
  9
$USRTIMER
 70
     1
  9
$ANGBASE
 50
0.0
  9
$ANGDIR
 70
     0
  9
$PDMODE
 70
     0
  9
$PDSIZE
 40
-1.0
  9
$PLINEWID
 40
0.0
  9
$SPLFRAME
 70
     0
  9
$SPLINETYPE
 70
     6
  9
$SPLINESEGS
 70
     8
  9
$HANDSEED
  5
EF
  9
$SURFTAB1
 70
     6
  9
$SURFTAB2
 70
     6
  9
$SURFTYPE
 70
     6
  9
$SURFU
 70
     6
  9
$SURFV
 70
     6
  9
$UCSBASE
  2

  9
$UCSNAME
  2

  9
$UCSORG
 10
0.0
 20
0.0
 30
0.0
  9
$UCSXDIR
 10
1.0
 20
0.0
 30
0.0
  9
$UCSYDIR
 10
0.0
 20
1.0
 30
0.0
  9
$UCSORTHOREF
  2

  9
$UCSORTHOVIEW
 70
     0
  9
$UCSORGTOP
 10
0.0
 20
0.0
 30
0.0
  9
$UCSORGBOTTOM
 10
0.0
 20
0.0
 30
0.0
  9
$UCSORGLEFT
 10
0.0
 20
0.0
 30
0.0
  9
$UCSORGRIGHT
 10
0.0
 20
0.0
 30
0.0
  9
$UCSORGFRONT
 10
0.0
 20
0.0
 30
0.0
  9
$UCSORGBACK
 10
0.0
 20
0.0
 30
0.0
  9
$PUCSBASE
  2

  9
$PUCSNAME
  2

  9
$PUCSORG
 10
0.0
 20
0.0
 30
0.0
  9
$PUCSXDIR
 10
1.0
 20
0.0
 30
0.0
  9
$PUCSYDIR
 10
0.0
 20
1.0
 30
0.0
  9
$PUCSORTHOREF
  2

  9
$PUCSORTHOVIEW
 70
     0
  9
$PUCSORGTOP
 10
0.0
 20
0.0
 30
0.0
  9
$PUCSORGBOTTOM
 10
0.0
 20
0.0
 30
0.0
  9
$PUCSORGLEFT
 10
0.0
 20
0.0
 30
0.0
  9
$PUCSORGRIGHT
 10
0.0
 20
0.0
 30
0.0
  9
$PUCSORGFRONT
 10
0.0
 20
0.0
 30
0.0
  9
$PUCSORGBACK
 10
0.0
 20
0.0
 30
0.0
  9
$USERI1
 70
     0
  9
$USERI2
 70
     0
  9
$USERI3
 70
     0
  9
$USERI4
 70
     0
  9
$USERI5
 70
     0
  9
$USERR1
 40
0.0
  9
$USERR2
 40
0.0
  9
$USERR3
 40
0.0
  9
$USERR4
 40
0.0
  9
$USERR5
 40
0.0
  9
$WORLDVIEW
 70
     1
  9
$SHADEDGE
 70
     3
  9
$SHADEDIF
 70
    70
  9
$TILEMODE
 70
     1
  9
$MAXACTVP
 70
    64
  9
$PINSBASE
 10
0.0
 20
0.0
 30
0.0
  9
$PLIMCHECK
 70
     0
  9
$PEXTMIN
 10
1.0000000000E+20
 20
1.0000000000E+20
 30
1.0000000000E+20
  9
$PEXTMAX
 10
-1.0000000000E+20
 20
-1.0000000000E+20
 30
-1.0000000000E+20
  9
$PLIMMIN
 10
0.0
 20
0.0
  9
$PLIMMAX
 10
420.0
 20
297.0
  9
$UNITMODE
 70
     0
  9
$VISRETAIN
 70
     1
  9
$PLINEGEN
 70
     0
  9
$PSLTSCALE
 70
     1
  9
$TREEDEPTH
 70
  3020
  9
$CMLSTYLE
  2
Standard
  9
$CMLJUST
 70
     0
  9
$CMLSCALE
 40
20.0
  9
$PROXYGRAPHICS
 70
     1
  9
$MEASUREMENT
 70
     1
  9
$CELWEIGHT
370
    -1
  9
$ENDCAPS
280
     0
  9
$JOINSTYLE
280
     0
  9
$LWDISPLAY
290
     1
  9
$INSUNITS
 70
     4
  9
$HYPERLINKBASE
  1

  9
$STYLESHEET
  1

  9
$XEDIT
290
     1
  9
$CEPSNTYPE
380
     0
  9
$PSTYLEMODE
290
     1
  9
$FINGERPRINTGUID
  2
{aac43604-d691-4e70-b80a-f1c847fd07d6}
  9
$VERSIONGUID
  2
{FAEB1C32-E019-11D5-929B-00C0DF256EC4}
  9
$EXTNAMES
290
     1
  9
$PSVPSCALE
 40
0.0
  9
$OLESTARTUP
290
     0
  0
ENDSEC
  0
SECTION
  2
CLASSES
  0
CLASS
  1
ACDBDICTIONARYWDFLT
  2
AcDbDictionaryWithDefault
  3
ObjectDBX Classes
 90
        0
280
     0
281
     0
  0
CLASS
  1
VISUALSTYLE
  2
AcDbVisualStyle
  3
ObjectDBX Classes
 90
     4095
280
     0
281
     0
  0
CLASS
  1
MATERIAL
  2
AcDbMaterial
  3
ObjectDBX Classes
 90
     1153
280
     0
281
     0
  0
CLASS
  1
SCALE
  2
AcDbScale
  3
ObjectDBX Classes
 90
     1153
280
     0
281
     0
  0
CLASS
  1
TABLESTYLE
  2
AcDbTableStyle
  3
ObjectDBX Classes
 90
     4095
280
     0
281
     0
  0
CLASS
  1
MLEADERSTYLE
  2
AcDbMLeaderStyle
  3
ACDB_MLEADERSTYLE_CLASS
 90
     4095
280
     0
281
     0
  0
CLASS
  1
SUN
  2
AcDbSun
  3
SCENEOE
 90
     1153
280
     0
281
     0
  0
CLASS
  1
ACDBPLACEHOLDER
  2
AcDbPlaceHolder
  3
ObjectDBX Classes
 90
        0
280
     0
281
     0
  0
CLASS
  1
LAYOUT
  2
AcDbLayout
  3
ObjectDBX Classes
 90
        0
280
     0
281
     0
  0
ENDSEC
  0
SECTION
  2
TABLES
  0
TABLE
  2
VPORT
  5
8
330
0
100
AcDbSymbolTable
 70
     1
  0
VPORT
  5
29
330
8
100
AcDbSymbolTableRecord
100
AcDbViewportTableRecord
  2
*Active
 70
     0
 10
0.0
 20
0.0
 11
1.0
 21
1.0
 12
139.7
 22
107.95
 13
0.0
 23
0.0
 14
10.0
 24
10.0
 15
10.0
 25
10.0
 16
0.0
 26
0.0
 36
1.0
 17
0.0
 27
0.0
 37
0.0
 40
215.9
 41
1.2941176471
 42
50.0
 43
0.0
 44
0.0
 50
0.0
 51
0.0
 71
     0
 72
  2000
 73
     1
 74
     3
 75
     0
 76
     0
 77
     0
 78
     0
281
     0
 65
     1
110
0.0
120
0.0
130
0.0
111
1.0
121
0.0
131
0.0
112
0.0
122
1.0
132
0.0
 79
     0
146
0.0
  0
ENDTAB
  0
TABLE
  2
LTYPE
  5
5
330
0
100
AcDbSymbolTable
 70
     6
  0
LTYPE
  5
14
330
5
100
AcDbSymbolTableRecord
100
AcDbLinetypeTableRecord
  2
ByBlock
 70
     0
  3

 72
    65
 73
     0
 40
0.0
  0
LTYPE
  5
15
330
5
100
AcDbSymbolTableRecord
100
AcDbLinetypeTableRecord
  2
ByLayer
 70
     0
  3

 72
    65
 73
     0
 40
0.0
  0
LTYPE
  5
16
330
5
100
AcDbSymbolTableRecord
100
AcDbLinetypeTableRecord
  2
Continuous
 70
     0
  3
Solid line
 72
    65
 73
     0
 40
0.0
  0
LTYPE
  5
6E
330
5
100
AcDbSymbolTableRecord
100
AcDbLinetypeTableRecord
  2
HIDDEN
 70
     0
  3
Hidden __ __ __ __ __ __ __ __ __ __ __ __ __ __
 72
    65
 73
     2
 40
1.905
 49
1.27
 74
     0
 49
-0.635
 74
     0
  0
LTYPE
  5
6F
330
5
100
AcDbSymbolTableRecord
100
AcDbLinetypeTableRecord
  2
PHANTOM
 70
     0
  3
Phantom ______  __  __  ______  __  __  ______
 72
    65
 73
     6
 40
12.7
 49
6.35
 74
     0
 49
-1.27
 74
     0
 49
1.27
 74
     0
 49
-1.27
 74
     0
 49
1.27
 74
     0
 49
-1.27
 74
     0
  0
LTYPE
  5
70
330
5
100
AcDbSymbolTableRecord
100
AcDbLinetypeTableRecord
  2
CENTER
 70
     0
  3
Center ____ _ ____ _ ____ _ ____ _ ____ _ ____
 72
    65
 73
     4
 40
10.16
 49
6.35
 74
     0
 49
-1.27
 74
     0
 49
1.27
 74
     0
 49
-1.27
 74
     0
  0
LTYPE
  5
71
330
5
100
AcDbSymbolTableRecord
100
AcDbLinetypeTableRecord
  2
CENTERX2
 70
     0
  3
Center (2x) ________  __  ________  __  _____
 72
    65
 73
     4
 40
20.32
 49
12.7
 74
     0
 49
-2.54
 74
     0
 49
2.54
 74
     0
 49
-2.54
 74
     0
  0
LTYPE
  5
72
330
5
100
AcDbSymbolTableRecord
100
AcDbLinetypeTableRecord
  2
DOT2
 70
     0
  3
Dot (.5x) ........................................
 72
    65
 73
     2
 40
0.635
 49
0.0
 74
     0
 49
-0.635
 74
     0
  0
ENDTAB
  0
TABLE
  2
LAYER
  5
2
330
0
100
AcDbSymbolTable
 70
    17
  0
LAYER
  5
10
330
2
100
AcDbSymbolTableRecord
100
AcDbLayerTableRecord
  2
0
 70
     0
 62
     7
  6
Continuous
370
    -3
390
F
  0
LAYER
  5
73
330
2
100
AcDbSymbolTableRecord
100
AcDbLayerTableRecord
  2
FORMAT
 70
     0
 62
     7
  6
Continuous
370
    -3
390
F
  0
LAYER
  5
74
330
2
100
AcDbSymbolTableRecord
100
AcDbLayerTableRecord
  2
YARDIMCI_GEOMETRI
 70
     0
 62
    -6
  6
Continuous
290
     0
370
    -3
390
F
  0
LAYER
  5
75
330
2
100
AcDbSymbolTableRecord
100
AcDbLayerTableRecord
  2
SAYFA_CERCEVESI
 70
     0
 62
     7
  6
Continuous
370
    25
390
F
  0
LAYER
  5
76
330
2
100
AcDbSymbolTableRecord
100
AcDbLayerTableRecord
  2
ANTET
 70
     0
 62
     7
  6
Continuous
370
    -3
390
F
  0
LAYER
  5
77
330
2
100
AcDbSymbolTableRecord
100
AcDbLayerTableRecord
  2
OLCU
 70
     0
 62
   150
  6
Continuous
370
    -3
390
F
  0
LAYER
  5
78
330
2
100
AcDbSymbolTableRecord
100
AcDbLayerTableRecord
  2
METIN
 70
     0
 62
    96
  6
Continuous
370
    -3
390
F
  0
LAYER
  5
79
330
2
100
AcDbSymbolTableRecord
100
AcDbLayerTableRecord
  2
BALON
 70
     0
 62
     5
  6
Continuous
370
    -3
390
F
  0
LAYER
  5
7A
330
2
100
AcDbSymbolTableRecord
100
AcDbLayerTableRecord
  2
VURGU
 70
     0
 62
     7
  6
Continuous
370
    -3
390
F
  0
LAYER
  5
7B
330
2
100
AcDbSymbolTableRecord
100
AcDbLayerTableRecord
  2
SILIK
 70
     0
 62
     7
  6
Continuous
370
    -3
390
F
  0
LAYER
  5
7C
330
2
100
AcDbSymbolTableRecord
100
AcDbLayerTableRecord
  2
MODEL
 70
     0
 62
     7
  6
Continuous
370
    -3
390
F
  0
LAYER
  5
7D
330
2
100
AcDbSymbolTableRecord
100
AcDbLayerTableRecord
  2
DETAYLANDıRMA
 70
     0
 62
   190
  6
Continuous
370
    -3
390
F
  0
LAYER
  5
7E
330
2
100
AcDbSymbolTableRecord
100
AcDbLayerTableRecord
  2
TOLERANS
 70
     0
 62
   230
  6
Continuous
370
    -3
390
F
  0
LAYER
  5
7F
330
2
100
AcDbSymbolTableRecord
100
AcDbLayerTableRecord
  2
MERKEZ_CIZGILERI
 70
     0
 62
    30
  6
Continuous
370
    -3
390
F
  0
LAYER
  5
80
330
2
100
AcDbSymbolTableRecord
100
AcDbLayerTableRecord
  2
KESIT-DETAY_CIZGILERI
 70
     0
 62
     7
  6
Continuous
370
    -3
390
F
  0
LAYER
  5
81
330
2
100
AcDbSymbolTableRecord
100
AcDbLayerTableRecord
  2
\U+041E\U+0421\U+0415\U+0412\U+042B\U+0415
 70
     0
 62
     7
  6
Continuous
370
    -3
390
F
  0
LAYER
  5
82
330
2
100
AcDbSymbolTableRecord
100
AcDbLayerTableRecord
  2
\U+0412\U+041E\U+0414\U+042F\U+041D\U+042B\U+0415_\U+0417\U+041D\U+0410\U+041A\U+0418
 70
     0
 62
    11
  6
Continuous
370
    -3
390
F
  0
ENDTAB
  0
TABLE
  2
STYLE
  5
3
330
0
100
AcDbSymbolTable
 70
     1
  0
STYLE
  5
11
330
3
100
AcDbSymbolTableRecord
100
AcDbTextStyleTableRecord
  2
Standard
 70
     0
 40
0.0
 41
1.0
 50
0.0
 71
     0
 42
3.5
  3
txt
  4

  0
ENDTAB
  0
TABLE
  2
VIEW
  5
6
330
0
100
AcDbSymbolTable
 70
     0
  0
ENDTAB
  0
TABLE
  2
UCS
  5
7
330
0
100
AcDbSymbolTable
 70
     0
  0
ENDTAB
  0
TABLE
  2
APPID
  5
9
330
0
100
AcDbSymbolTable
 70
     1
  0
APPID
  5
12
330
9
100
AcDbSymbolTableRecord
100
AcDbRegAppTableRecord
  2
ACAD
 70
     0
  0
ENDTAB
  0
TABLE
  2
DIMSTYLE
  5
A
330
0
100
AcDbSymbolTable
 70
     1
100
AcDbDimStyleTable
  0
DIMSTYLE
105
27
330
A
100
AcDbSymbolTableRecord
100
AcDbDimStyleTableRecord
  2
ISO-25
 70
     0
 41
2.5
 42
0.625
 43
3.75
 44
1.25
 73
     0
 74
     0
 77
     1
 78
     8
140
2.5
141
2.5
143
0.0393700787
147
0.625
171
     3
172
     1
178
     0
271
     2
272
     2
274
     3
278
    44
283
     0
284
     8
340
11
  0
ENDTAB
  0
TABLE
  2
BLOCK_RECORD
  5
1
330
0
100
AcDbSymbolTable
 70
     2
  0
BLOCK_RECORD
  5
1F
330
1
100
AcDbSymbolTableRecord
100
AcDbBlockTableRecord
  2
*Model_Space
340
22
  0
BLOCK_RECORD
  5
1B
330
1
100
AcDbSymbolTableRecord
100
AcDbBlockTableRecord
  2
*Paper_Space
340
1E
  0
BLOCK_RECORD
  5
23
330
1
100
AcDbSymbolTableRecord
100
AcDbBlockTableRecord
  2
*Paper_Space0
340
26
  0
BLOCK_RECORD
  5
88
330
1
100
AcDbSymbolTableRecord
100
AcDbBlockTableRecord
  2
SW_CENTERMARKSYMBOL_0
340
0
102
{BLKREFS
331
93
102
}
  0
ENDTAB
  0
ENDSEC
  0
SECTION
  2
BLOCKS
  0
BLOCK
  5
20
330
1F
100
AcDbEntity
  8
0
100
AcDbBlockBegin
  2
*Model_Space
 70
     0
 10
0.0
 20
0.0
 30
0.0
  3
*Model_Space
  1

  0
ENDBLK
  5
21
330
1F
100
AcDbEntity
  8
0
100
AcDbBlockEnd
  0
BLOCK
  5
1C
330
1B
100
AcDbEntity
 67
     1
  8
0
100
AcDbBlockBegin
  2
*Paper_Space
 70
     0
 10
0.0
 20
0.0
 30
0.0
  3
*Paper_Space
  1

  0
ENDBLK
  5
1D
330
1B
100
AcDbEntity
 67
     1
  8
0
100
AcDbBlockEnd
  0
BLOCK
  5
24
330
23
100
AcDbEntity
  8
0
100
AcDbBlockBegin
  2
*Paper_Space0
 70
     0
 10
0.0
 20
0.0
 30
0.0
  3
*Paper_Space0
  1

  0
ENDBLK
  5
25
330
23
100
AcDbEntity
  8
0
100
AcDbBlockEnd
  0
BLOCK
  5
89
330
88
100
AcDbEntity
  8
0
100
AcDbBlockBegin
  2
SW_CENTERMARKSYMBOL_0
 70
     0
 10
0.0
 20
0.0
 30
0.0
  3
SW_CENTERMARKSYMBOL_0
  1

  0
LINE
  5
8B
330
88
100
AcDbEntity
  8
FORMAT
 62
     0
100
AcDbLine
 10
0.0
 20
0.0
 30
0.0
 11
0.0
 21
2.5
 31
0.0
  0
LINE
  5
8C
330
88
100
AcDbEntity
  8
FORMAT
 62
     0
100
AcDbLine
 10
0.0
 20
0.0
 30
0.0
 11
-2.5
 21
0.0
 31
0.0
  0
LINE
  5
8D
330
88
100
AcDbEntity
  8
FORMAT
 62
     0
100
AcDbLine
 10
0.0
 20
0.0
 30
0.0
 11
0.0
 21
-2.5
 31
0.0
  0
LINE
  5
8E
330
88
100
AcDbEntity
  8
FORMAT
 62
     0
100
AcDbLine
 10
0.0
 20
0.0
 30
0.0
 11
2.5
 21
0.0
 31
0.0
  0
LINE
  5
8F
330
88
100
AcDbEntity
  8
FORMAT
 62
     0
100
AcDbLine
 10
0.0
 20
5.0
 30
0.0
 11
0.0
 21
180.0
 31
0.0
  0
LINE
  5
90
330
88
100
AcDbEntity
  8
FORMAT
 62
     0
100
AcDbLine
 10
-5.0
 20
0.0
 30
0.0
 11
-180.0
 21
0.0
 31
0.0
  0
LINE
  5
91
330
88
100
AcDbEntity
  8
FORMAT
 62
     0
100
AcDbLine
 10
0.0
 20
-5.0
 30
0.0
 11
0.0
 21
-180.0
 31
0.0
  0
LINE
  5
92
330
88
100
AcDbEntity
  8
FORMAT
 62
     0
100
AcDbLine
 10
5.0
 20
0.0
 30
0.0
 11
180.0
 21
0.0
 31
0.0
  0
ENDBLK
  5
8A
330
88
100
AcDbEntity
  8
0
100
AcDbBlockEnd
  0
ENDSEC
  0
SECTION
  2
ENTITIES
  0
CIRCLE
  5
83
330
1F
100
AcDbEntity
  8
0
  6
Continuous
 62
     7
370
    25
100
AcDbCircle
 10
130.6810329512
 20
112.0420513222
 30
0.0
 40
177.5
  0
CIRCLE
  5
84
330
1F
100
AcDbEntity
  8
0
  6
Continuous
 62
     7
370
    25
100
AcDbCircle
 10
130.6810329512
 20
112.0420513222
 30
0.0
 40
156.4
  0
CIRCLE
  5
85
330
1F
100
AcDbEntity
  8
0
  6
Continuous
 62
     7
370
    25
100
AcDbCircle
 10
130.6810329512
 20
112.0420513222
 30
0.0
 40
156.2353726863132
  0
CIRCLE
  5
86
330
1F
100
AcDbEntity
  8
0
  6
Continuous
 62
     7
370
    25
100
AcDbCircle
 10
130.6810329512
 20
112.0420513222
 30
0.0
 40
138.9646273136868
  0
CIRCLE
  5
87
330
1F
100
AcDbEntity
  8
0
  6
Continuous
 62
     7
370
    25
100
AcDbCircle
 10
130.6810329512
 20
112.0420513222
 30
0.0
 40
138.8
  0
INSERT
  5
93
330
1F
100
AcDbEntity
  8
FORMAT
 62
     7
100
AcDbBlockReference
  2
SW_CENTERMARKSYMBOL_0
 10
130.6810329512
 20
112.0420513222
 30
0.0
  0
ARC
  5
94
330
1F
100
AcDbEntity
  8
0
  6
Continuous
 62
     7
370
    25
100
AcDbCircle
 10
-465.3119465255
 20
287.5420513222
 30
0.0
 40
2.000000000000009
100
AcDbArc
 50
75.2564371635
 51
90.0
  0
ARC
  5
95
330
1F
100
AcDbEntity
  8
0
  6
Continuous
 62
     7
370
    25
100
AcDbCircle
 10
-465.3119465255
 20
-63.4579486778
 30
0.0
 40
2.000000000000043
100
AcDbArc
 50
270.0
 51
284.7435628365
  0
LINE
  5
96
330
1F
100
AcDbEntity
  8
0
  6
Continuous
 62
     7
370
    25
100
AcDbLine
 10
-465.3119459662
 20
289.5420459578
 30
0.0
 11
-629.053191832
 21
289.5420459578
 31
0.0
  0
LINE
  5
97
330
1F
100
AcDbEntity
  8
0
  6
Continuous
 62
     7
370
    25
100
AcDbLine
 10
-629.053191832
 20
-65.4579433134
 30
0.0
 11
-465.3119459662
 21
-65.4579433134
 31
0.0
  0
LINE
  5
98
330
1F
100
AcDbEntity
  8
0
  6
Continuous
 62
     7
370
    25
100
AcDbLine
 10
-464.8029595527
 20
-65.392095082
 30
0.0
 11
-389.3034286711
 21
-45.523795717
 31
0.0
  0
LINE
  5
99
330
1F
100
AcDbEntity
  8
0
  6
Continuous
 62
     7
370
    25
100
AcDbLine
 10
-389.3034286711
 20
269.6078983614
 30
0.0
 11
-464.8029595527
 21
289.4761977265
 31
0.0
  0
ARC
  5
9A
330
1F
100
AcDbEntity
  8
0
  6
Continuous
 62
     7
370
    25
100
AcDbCircle
 10
-388.794440362
 20
271.5420513222
 30
0.0
 40
1.999999999999954
100
AcDbArc
 50
255.2564371635
 51
270.0
  0
ARC
  5
9B
330
1F
100
AcDbEntity
  8
0
  6
Continuous
 62
     7
370
    25
100
AcDbCircle
 10
-388.794440362
 20
-47.4579486778
 30
0.0
 40
1.999999999999988
100
AcDbArc
 50
90.0
 51
104.7435628365
  0
LINE
  5
9C
330
1F
100
AcDbEntity
  8
0
  6
Continuous
 62
     7
370
    25
100
AcDbLine
 10
-239.053191236
 20
269.5420501301
 30
0.0
 11
-388.7944385323
 21
269.5420501301
 31
0.0
  0
LINE
  5
9D
330
1F
100
AcDbEntity
  8
0
  6
Continuous
 62
     7
370
    25
100
AcDbLine
 10
-388.7944385323
 20
-45.4579474857
 30
0.0
 11
-239.053191236
 21
-45.4579474857
 31
0.0
  0
LINE
  5
9E
330
1F
100
AcDbEntity
  8
0
  6
Continuous
 62
     7
370
    25
100
AcDbLine
 10
-629.053191832
 20
289.5420459578
 30
0.0
 11
-629.053191832
 21
-65.4579433134
 31
0.0
  0
LINE
  5
9F
330
1F
100
AcDbEntity
  8
0
  6
Continuous
 62
     7
370
    25
100
AcDbLine
 10
-239.053191236
 20
269.5420501301
 30
0.0
 11
-239.053191236
 21
-45.4579474857
 31
0.0
  0
LINE
  5
A0
330
1F
100
AcDbEntity
  8
0
  6
Continuous
 62
     1
370
    25
100
AcDbLine
 10
-464.8029595527
 20
289.4761977265
 30
0.0
 11
-464.8029595527
 21
-65.392095082
 31
0.0
  0
LINE
  5
A1
330
1F
100
AcDbEntity
  8
0
  6
Continuous
 62
     1
370
    25
100
AcDbLine
 10
-465.3119459662
 20
289.5420459578
 30
0.0
 11
-465.3119459662
 21
-65.4579433134
 31
0.0
  0
LINE
  5
A2
330
1F
100
AcDbEntity
  8
0
  6
Continuous
 62
     1
370
    25
100
AcDbLine
 10
-389.3034286711
 20
269.6078983614
 30
0.0
 11
-389.3034286711
 21
-45.523795717
 31
0.0
  0
LINE
  5
A3
330
1F
100
AcDbEntity
  8
0
  6
Continuous
 62
     1
370
    25
100
AcDbLine
 10
-388.7944385323
 20
269.5420501301
 30
0.0
 11
-388.7944385323
 21
-45.4579474857
 31
0.0
  0
ARC
  5
A4
330
1F
100
AcDbEntity
  8
0
  6
Continuous
 62
     7
370
    25
100
AcDbCircle
 10
306.1810329512
 20
563.1538016761
 30
0.0
 40
2.000000000000038
100
AcDbArc
 50
345.2564371635
 51
0.0
  0
ARC
  5
A5
330
1F
100
AcDbEntity
  8
0
  6
Continuous
 62
     7
370
    25
100
AcDbCircle
 10
-44.8189670488
 20
563.1538016761
 30
0.0
 40
2.000000000000072
100
AcDbArc
 50
180.0
 51
194.7435628365
  0
LINE
  5
A6
330
1F
100
AcDbEntity
  8
0
  6
Continuous
 62
     7
370
    25
100
AcDbLine
 10
308.1810275867
 20
563.1538011168
 30
0.0
 11
308.1810275867
 21
726.8950469826
 31
0.0
  0
LINE
  5
A7
330
1F
100
AcDbEntity
  8
0
  6
Continuous
 62
     7
370
    25
100
AcDbLine
 10
-46.8189616844
 20
726.8950469826
 30
0.0
 11
-46.8189616844
 21
563.1538011168
 31
0.0
  0
LINE
  5
A8
330
1F
100
AcDbEntity
  8
0
  6
Continuous
 62
     7
370
    25
100
AcDbLine
 10
-46.7531134531
 20
562.6448147033
 30
0.0
 11
-26.8848140881
 21
487.1452838217
 31
0.0
  0
LINE
  5
A9
330
1F
100
AcDbEntity
  8
0
  6
Continuous
 62
     7
370
    25
100
AcDbLine
 10
288.2468799904
 20
487.1452838217
 30
0.0
 11
308.1151793554
 21
562.6448147033
 31
0.0
  0
ARC
  5
AA
330
1F
100
AcDbEntity
  8
0
  6
Continuous
 62
     7
370
    25
100
AcDbCircle
 10
290.1810329512
 20
486.6362955126
 30
0.0
 40
1.999999999999954
100
AcDbArc
 50
165.2564371635
 51
180.0
  0
ARC
  5
AB
330
1F
100
AcDbEntity
  8
0
  6
Continuous
 62
     7
370
    25
100
AcDbCircle
 10
-28.8189670488
 20
486.6362955126
 30
0.0
 40
1.999999999999985
100
AcDbArc
 50
0.0
 51
14.7435628365
  0
LINE
  5
AC
330
1F
100
AcDbEntity
  8
0
  6
Continuous
 62
     7
370
    25
100
AcDbLine
 10
288.1810317591
 20
336.8950463866
 30
0.0
 11
288.1810317591
 21
486.6362936829
 31
0.0
  0
LINE
  5
AD
330
1F
100
AcDbEntity
  8
0
  6
Continuous
 62
     7
370
    25
100
AcDbLine
 10
-26.8189658567
 20
486.6362936829
 30
0.0
 11
-26.8189658567
 21
336.8950463866
 31
0.0
  0
LINE
  5
AE
330
1F
100
AcDbEntity
  8
0
  6
Continuous
 62
     7
370
    25
100
AcDbLine
 10
308.1810275867
 20
726.8950469826
 30
0.0
 11
-46.8189616844
 21
726.8950469826
 31
0.0
  0
LINE
  5
AF
330
1F
100
AcDbEntity
  8
0
  6
Continuous
 62
     7
370
    25
100
AcDbLine
 10
288.1810317591
 20
336.8950463866
 30
0.0
 11
-26.8189658567
 21
336.8950463866
 31
0.0
  0
LINE
  5
B0
330
1F
100
AcDbEntity
  8
0
  6
Continuous
 62
     1
370
    25
100
AcDbLine
 10
308.1151793554
 20
562.6448147033
 30
0.0
 11
-46.7531134531
 21
562.6448147033
 31
0.0
  0
LINE
  5
B1
330
1F
100
AcDbEntity
  8
0
  6
Continuous
 62
     1
370
    25
100
AcDbLine
 10
308.1810275867
 20
563.1538011168
 30
0.0
 11
-46.8189616844
 21
563.1538011168
 31
0.0
  0
LINE
  5
B2
330
1F
100
AcDbEntity
  8
0
  6
Continuous
 62
     1
370
    25
100
AcDbLine
 10
288.2468799904
 20
487.1452838217
 30
0.0
 11
-26.8848140881
 21
487.1452838217
 31
0.0
  0
LINE
  5
B3
330
1F
100
AcDbEntity
  8
0
  6
Continuous
 62
     1
370
    25
100
AcDbLine
 10
288.1810317591
 20
486.6362936829
 30
0.0
 11
-26.8189658567
 21
486.6362936829
 31
0.0
  0
ARC
  5
B4
330
1F
100
AcDbEntity
  8
0
  6
Continuous
 62
     7
370
    25
100
AcDbCircle
 10
724.765900979
 20
-63.4579486778
 30
0.0
 40
2.000000000000072
100
AcDbArc
 50
255.2564371635
 51
270.0
  0
ARC
  5
B5
330
1F
100
AcDbEntity
  8
0
  6
Continuous
 62
     7
370
    25
100
AcDbCircle
 10
724.765900979
 20
287.5420513222
 30
0.0
 40
2.000000000000038
100
AcDbArc
 50
90.0
 51
104.7435628365
  0
LINE
  5
B6
330
1F
100
AcDbEntity
  8
0
  6
Continuous
 62
     7
370
    25
100
AcDbLine
 10
724.7659004198
 20
-65.4579433134
 30
0.0
 11
888.5071462856
 21
-65.4579433134
 31
0.0
  0
LINE
  5
B7
330
1F
100
AcDbEntity
  8
0
  6
Continuous
 62
     7
370
    25
100
AcDbLine
 10
888.5071462856
 20
289.5420459578
 30
0.0
 11
724.7659004198
 21
289.5420459578
 31
0.0
  0
LINE
  5
B8
330
1F
100
AcDbEntity
  8
0
  6
Continuous
 62
     7
370
    25
100
AcDbLine
 10
724.2569140063
 20
289.4761977265
 30
0.0
 11
648.7573831246
 21
269.6078983614
 31
0.0
  0
LINE
  5
B9
330
1F
100
AcDbEntity
  8
0
  6
Continuous
 62
     7
370
    25
100
AcDbLine
 10
648.7573831246
 20
-45.523795717
 30
0.0
 11
724.2569140063
 21
-65.392095082
 31
0.0
  0
ARC
  5
BA
330
1F
100
AcDbEntity
  8
0
  6
Continuous
 62
     7
370
    25
100
AcDbCircle
 10
648.2483948155
 20
-47.4579486778
 30
0.0
 40
1.999999999999979
100
AcDbArc
 50
75.2564371635
 51
90.0
  0
ARC
  5
BB
330
1F
100
AcDbEntity
  8
0
  6
Continuous
 62
     7
370
    25
100
AcDbCircle
 10
648.2483948155
 20
271.5420513222
 30
0.0
 40
1.999999999999943
100
AcDbArc
 50
270.0
 51
284.7435628365
  0
LINE
  5
BC
330
1F
100
AcDbEntity
  8
0
  6
Continuous
 62
     7
370
    25
100
AcDbLine
 10
498.5071456895
 20
-45.4579474857
 30
0.0
 11
648.2483929859
 21
-45.4579474857
 31
0.0
  0
LINE
  5
BD
330
1F
100
AcDbEntity
  8
0
  6
Continuous
 62
     7
370
    25
100
AcDbLine
 10
648.2483929859
 20
269.5420501301
 30
0.0
 11
498.5071456895
 21
269.5420501301
 31
0.0
  0
LINE
  5
BE
330
1F
100
AcDbEntity
  8
0
  6
Continuous
 62
     7
370
    25
100
AcDbLine
 10
888.5071462856
 20
112.0420513222
 30
0.0
 11
888.5071462856
 21
289.5420459578
 31
0.0
  0
LINE
  5
BF
330
1F
100
AcDbEntity
  8
0
  6
Continuous
 62
     7
370
    25
100
AcDbLine
 10
888.5071462856
 20
-65.4579433134
 30
0.0
 11
888.5071462856
 21
112.0420513222
 31
0.0
  0
LINE
  5
C0
330
1F
100
AcDbEntity
  8
0
  6
Continuous
 62
     7
370
    25
100
AcDbLine
 10
498.5071456895
 20
112.0420513222
 30
0.0
 11
498.5071456895
 21
269.5420501301
 31
0.0
  0
LINE
  5
C1
330
1F
100
AcDbEntity
  8
0
  6
Continuous
 62
     7
370
    25
100
AcDbLine
 10
498.5071456895
 20
-45.4579474857
 30
0.0
 11
498.5071456895
 21
112.0420513222
 31
0.0
  0
LINE
  5
C2
330
1F
100
AcDbEntity
  8
0
  6
Continuous
 62
     1
370
    25
100
AcDbLine
 10
724.2569140063
 20
112.0420513222
 30
0.0
 11
724.2569140063
 21
289.4761977265
 31
0.0
  0
LINE
  5
C3
330
1F
100
AcDbEntity
  8
0
  6
Continuous
 62
     1
370
    25
100
AcDbLine
 10
724.2569140063
 20
-65.392095082
 30
0.0
 11
724.2569140063
 21
112.0420513222
 31
0.0
  0
LINE
  5
C4
330
1F
100
AcDbEntity
  8
0
  6
Continuous
 62
     1
370
    25
100
AcDbLine
 10
724.7659004198
 20
112.0420513222
 30
0.0
 11
724.7659004198
 21
289.5420459578
 31
0.0
  0
LINE
  5
C5
330
1F
100
AcDbEntity
  8
0
  6
Continuous
 62
     1
370
    25
100
AcDbLine
 10
724.7659004198
 20
-65.4579433134
 30
0.0
 11
724.7659004198
 21
112.0420513222
 31
0.0
  0
LINE
  5
C6
330
1F
100
AcDbEntity
  8
0
  6
Continuous
 62
     1
370
    25
100
AcDbLine
 10
648.7573831246
 20
112.0420513222
 30
0.0
 11
648.7573831246
 21
269.6078983614
 31
0.0
  0
LINE
  5
C7
330
1F
100
AcDbEntity
  8
0
  6
Continuous
 62
     1
370
    25
100
AcDbLine
 10
648.7573831246
 20
-45.523795717
 30
0.0
 11
648.7573831246
 21
112.0420513222
 31
0.0
  0
LINE
  5
C8
330
1F
100
AcDbEntity
  8
0
  6
Continuous
 62
     1
370
    25
100
AcDbLine
 10
648.2483929859
 20
112.0420513222
 30
0.0
 11
648.2483929859
 21
269.5420501301
 31
0.0
  0
LINE
  5
C9
330
1F
100
AcDbEntity
  8
0
  6
Continuous
 62
     1
370
    25
100
AcDbLine
 10
648.2483929859
 20
-45.4579474857
 30
0.0
 11
648.2483929859
 21
112.0420513222
 31
0.0
  0
ARC
  5
CA
330
1F
100
AcDbEntity
  8
0
  6
Continuous
 62
     7
370
    25
100
AcDbCircle
 10
-44.8189670488
 20
-435.9092322513
 30
0.0
 40
2.000000000000036
100
AcDbArc
 50
165.2564371635
 51
180.0
  0
ARC
  5
CB
330
1F
100
AcDbEntity
  8
0
  6
Continuous
 62
     7
370
    25
100
AcDbCircle
 10
306.1810329512
 20
-435.9092322513
 30
0.0
 40
2.0
100
AcDbArc
 50
0.0
 51
14.7435628365
  0
LINE
  5
CC
330
1F
100
AcDbEntity
  8
0
  6
Continuous
 62
     7
370
    25
100
AcDbLine
 10
-46.8189616844
 20
-435.909231692
 30
0.0
 11
-46.8189616844
 21
-599.6504775578
 31
0.0
  0
LINE
  5
CD
330
1F
100
AcDbEntity
  8
0
  6
Continuous
 62
     7
370
    25
100
AcDbLine
 10
308.1810275867
 20
-599.6504775578
 30
0.0
 11
308.1810275867
 21
-435.909231692
 31
0.0
  0
LINE
  5
CE
330
1F
100
AcDbEntity
  8
0
  6
Continuous
 62
     7
370
    25
100
AcDbLine
 10
308.1151793554
 20
-435.4002452785
 30
0.0
 11
288.2468799904
 21
-359.9007143969
 31
0.0
  0
LINE
  5
CF
330
1F
100
AcDbEntity
  8
0
  6
Continuous
 62
     7
370
    25
100
AcDbLine
 10
-26.8848140881
 20
-359.9007143969
 30
0.0
 11
-46.7531134531
 21
-435.4002452785
 31
0.0
  0
ARC
  5
D0
330
1F
100
AcDbEntity
  8
0
  6
Continuous
 62
     7
370
    25
100
AcDbCircle
 10
-28.8189670488
 20
-359.3917260878
 30
0.0
 40
1.999999999999985
100
AcDbArc
 50
345.2564371635
 51
0.0
  0
ARC
  5
D1
330
1F
100
AcDbEntity
  8
0
  6
Continuous
 62
     7
370
    25
100
AcDbCircle
 10
290.1810329512
 20
-359.3917260878
 30
0.0
 40
1.999999999999954
100
AcDbArc
 50
180.0
 51
194.7435628365
  0
LINE
  5
D2
330
1F
100
AcDbEntity
  8
0
  6
Continuous
 62
     7
370
    25
100
AcDbLine
 10
-26.8189658567
 20
-209.6504769618
 30
0.0
 11
-26.8189658567
 21
-359.3917242581
 31
0.0
  0
LINE
  5
D3
330
1F
100
AcDbEntity
  8
0
  6
Continuous
 62
     7
370
    25
100
AcDbLine
 10
288.1810317591
 20
-359.3917242581
 30
0.0
 11
288.1810317591
 21
-209.6504769618
 31
0.0
  0
LINE
  5
D4
330
1F
100
AcDbEntity
  8
0
  6
Continuous
 62
     7
370
    25
100
AcDbLine
 10
-46.8189616844
 20
-599.6504775578
 30
0.0
 11
308.1810275867
 21
-599.6504775578
 31
0.0
  0
LINE
  5
D5
330
1F
100
AcDbEntity
  8
0
  6
Continuous
 62
     7
370
    25
100
AcDbLine
 10
-26.8189658567
 20
-209.6504769618
 30
0.0
 11
288.1810317591
 21
-209.6504769618
 31
0.0
  0
LINE
  5
D6
330
1F
100
AcDbEntity
  8
0
  6
Continuous
 62
     1
370
    25
100
AcDbLine
 10
-46.7531134531
 20
-435.4002452785
 30
0.0
 11
308.1151793554
 21
-435.4002452785
 31
0.0
  0
LINE
  5
D7
330
1F
100
AcDbEntity
  8
0
  6
Continuous
 62
     1
370
    25
100
AcDbLine
 10
-46.8189616844
 20
-435.909231692
 30
0.0
 11
308.1810275867
 21
-435.909231692
 31
0.0
  0
LINE
  5
D8
330
1F
100
AcDbEntity
  8
0
  6
Continuous
 62
     1
370
    25
100
AcDbLine
 10
-26.8848140881
 20
-359.9007143969
 30
0.0
 11
288.2468799904
 21
-359.9007143969
 31
0.0
  0
LINE
  5
D9
330
1F
100
AcDbEntity
  8
0
  6
Continuous
 62
     1
370
    25
100
AcDbLine
 10
-26.8189658567
 20
-359.3917242581
 30
0.0
 11
288.1810317591
 21
-359.3917242581
 31
0.0
  0
LINE
  5
DA
330
1F
100
AcDbEntity
  8
0
  6
Continuous
 62
     7
370
    25
100
AcDbLine
 10
752.2954730207
 20
-224.8283183237
 30
0.0
 11
636.512927709
 21
-157.9884776413
 31
0.0
  0
LINE
  5
DB
330
1F
100
AcDbEntity
  8
0
  6
Continuous
 62
     7
370
    25
100
AcDbLine
 10
459.0273434939
 20
-465.4358405691
 30
0.0
 11
574.8098888055
 21
-532.2756812515
 31
0.0
  0
LINE
  5
DC
330
1F
100
AcDbEntity
  8
0
  6
Continuous
 62
     7
370
    25
100
AcDbLine
 10
593.2635650563
 20
-539.2738320128
 30
0.0
 11
654.560764053
 21
-552.1193756039
 31
0.0
  0
LINE
  5
DD
330
1F
100
AcDbEntity
  8
0
  6
Continuous
 62
     7
370
    25
100
AcDbLine
 10
809.3616131156
 20
-283.9673971608
 30
0.0
 11
767.5840579256
 21
-237.3091642935
 31
0.0
  0
LINE
  5
DE
330
1F
100
AcDbEntity
  8
0
  6
Continuous
 62
     7
370
    25
100
AcDbLine
 10
902.285380498
 20
-334.5090425097
 30
0.0
 11
803.6120506772
 21
-277.5461416936
 31
0.0
  0
LINE
  5
DF
330
1F
100
AcDbEntity
  8
0
  6
Continuous
 62
     7
370
    25
100
AcDbLine
 10
646.1248510526
 20
-550.351538982
 30
0.0
 11
744.7981808733
 21
-607.3144397981
 31
0.0
  0
LWPOLYLINE
  5
E0
330
1F
100
AcDbEntity
  8
0
  6
Continuous
 62
     7
370
    25
100
AcDbPolyline
 90
      142
 70
   128
 43
0.0
 10
422.2586857341
 20
-384.1683768397
 10
422.383282355
 20
-377.6400062466
 10
422.7568193366
 20
-370.9807453257
 10
423.3785591091
 20
-364.2038108527
 10
424.2472688772
 20
-357.3226568216
 10
425.3612206201
 20
-350.3509501091
 10
426.7182121649
 20
-343.3025233286
 10
428.3155250399
 20
-336.1913869935
 10
430.1500193049
 20
-329.031639791
 10
432.218028184
 20
-321.8375142005
 10
434.5154634331
 20
-314.6232791642
 10
437.0377521189
 20
-307.4032674575
 10
439.7798787666
 20
-300.1918118144
 10
442.7364275061
 20
-293.0032205964
 10
445.9014977786
 20
-285.8517838685
 10
449.2688202403
 20
-278.7516943219
 10
452.8317146159
 20
-271.7170351025
 10
456.5831002348
 20
-264.7617798119
 10
460.515522373
 20
-257.8997468824
 10
464.6211838637
 20
-251.1445509098
 10
468.8919292917
 20
-244.5096117781
 10
473.319281872
 20
-238.0080968672
 10
477.8944487184
 20
-231.6529058447
 10
482.608347185
 20
-225.4566676259
 10
487.4516206715
 20
-219.4316825805
 10
492.4146491597
 20
-213.5899164501
 10
497.4875808237
 20
-207.9429577646
 10
502.6603425668
 20
-202.5020239273
 10
507.9226689972
 20
-197.2779201529
 10
513.2641050622
 20
-192.2810136112
 10
518.6740508294
 20
-187.5212319111
 10
524.1417641209
 20
-183.0080129102
 10
529.6563908061
 20
-178.7503237287
 10
535.2069792897
 20
-174.7566158841
 10
540.7825114637
 20
-171.0348195904
 10
546.3719168656
 20
-167.592335584
 10
551.9640980325
 20
-164.4359839858
 10
557.5479522334
 20
-161.572028257
 10
563.1123932008
 20
-159.0061626543
 10
568.646374509
 20
-156.7434865656
 10
574.1389083431
 20
-154.7884936758
 10
579.5790892058
 20
-153.1450461132
 10
584.9561156501
 20
-151.8164227407
 10
590.2593113527
 20
-150.8052583208
 10
595.4781501379
 20
-150.1135534041
 10
600.6022691494
 20
-149.7426910608
 10
605.6214951917
 20
-149.6934095063
 10
610.5258605351
 20
-149.9657929769
 10
615.305634526
 20
-150.5593143194
 10
619.9513183183
 20
-151.4727893623
 10
624.4536975573
 20
-152.7044073391
 10
628.8038265745
 20
-154.2517156782
 10
632.9930705341
 20
-156.111644341
 10
637.0131159704
 20
-158.2805119072
 10
640.8559707873
 20
-160.7540012394
 10
644.5140116734
 20
-163.527199032
 10
647.9799788341
 20
-166.5946110199
 10
651.2469917964
 20
-169.9501346032
 10
654.3085599457
 20
-173.5871196854
 10
657.1586035989
 20
-177.498332173
 10
659.7914750786
 20
-181.6760148145
 10
662.2019271019
 20
-186.1118811139
 10
664.385197075
 20
-190.7971031712
 10
666.3369227992
 20
-195.7223998877
 10
668.0532583744
 20
-200.8779791826
 10
669.5307793692
 20
-206.2536079457
 10
670.7665565777
 20
-211.8386181289
 10
671.7581349459
 20
-217.621915869
 10
672.5035441086
 20
-223.5920240753
 10
673.0013089262
 20
-229.7370847114
 10
673.2504389478
 20
-236.0448994795
 10
673.2504389478
 20
-242.5029442696
 10
673.0013089262
 20
-249.098398438
 10
672.5035441086
 20
-255.8181660996
 10
671.7581349459
 20
-262.6489054061
 10
670.7665565777
 20
-269.5770551613
 10
669.5307793692
 20
-276.5888633391
 10
668.0532583744
 20
-283.6704015316
 10
666.3369227992
 20
-290.8076197012
 10
664.385197075
 20
-297.9863309736
 10
662.2019271019
 20
-305.1923028861
 10
659.7914750786
 20
-312.4112178528
 10
657.1586035989
 20
-319.6287491998
 10
654.3085599457
 20
-326.8305520472
 10
651.2469917964
 20
-334.002348474
 10
647.9799788341
 20
-341.1298849341
 10
644.5140116734
 20
-348.1990174267
 10
640.8559707873
 20
-355.195699327
 10
637.0131159704
 20
-362.1060543893
 10
632.9930705341
 20
-368.9163676203
 10
628.8038265745
 20
-375.6130944048
 10
624.4536975573
 20
-382.1829547991
 10
619.9513183183
 20
-388.6129091956
 10
615.305634526
 20
-394.8901765735
 10
610.5258605351
 20
-401.0023074989
 10
605.6214951917
 20
-406.9371506663
 10
600.6022691494
 20
-412.6829441485
 10
595.4781501379
 20
-418.2282636865
 10
590.2593113527
 20
-423.562101774
 10
584.9561156501
 20
-428.6738767817
 10
579.5790892058
 20
-433.553435997
 10
574.1389083431
 20
-438.1910875615
 10
568.646374509
 20
-442.5776392529
 10
563.1123932008
 20
-446.7043619805
 10
557.5479522334
 20
-450.563063168
 10
551.9640980325
 20
-454.1460882718
 10
546.3719168656
 20
-457.4463316164
 10
540.7825114637
 20
-460.4572377228
 10
535.2069792897
 20
-463.1728138538
 10
529.6563908061
 20
-465.5876790621
 10
524.1417641209
 20
-467.6970423248
 10
518.6740508294
 20
-469.4967107166
 10
513.2641050622
 20
-470.9831194456
 10
507.9226689972
 20
-472.1533037143
 10
502.6603425668
 20
-473.0049527102
 10
497.4875808237
 20
-473.5363624567
 10
492.4146491597
 20
-473.7464859989
 10
487.4516206715
 20
-473.6349105904
 10
482.608347185
 20
-473.2018500851
 10
477.8944487184
 20
-472.4481631879
 10
473.319281872
 20
-471.3753473677
 10
468.8919292917
 20
-469.9855449402
 10
464.6211838637
 20
-468.2815035225
 10
460.515522373
 20
-466.2666034071
 10
456.5831002348
 20
-463.9448484358
 10
452.8317146159
 20
-461.3208507874
 10
449.2688202403
 20
-458.3998218529
 10
445.9014977786
 20
-455.1875600659
 10
442.7364275061
 20
-451.6904356905
 10
439.7798787666
 20
-447.9154029874
 10
437.0377521189
 20
-443.8699393817
 10
434.5154634331
 20
-439.5621002043
 10
432.218028184
 20
-435.0004274452
 10
430.1500193049
 20
-430.1939740836
 10
428.3155250399
 20
-425.1522888752
 10
426.7182121649
 20
-419.8853707303
 10
425.3612206201
 20
-414.4036930382
 10
424.2472688772
 20
-408.7181276318
 10
423.3785591091
 20
-402.8399645495
 10
422.7568193366
 20
-396.7808755382
 10
422.383282355
 20
-390.5528912363
 10
422.2586857341
 20
-384.1683768397
  0
LWPOLYLINE
  5
E1
330
1F
100
AcDbEntity
  8
0
  6
Continuous
 62
     7
370
    25
100
AcDbPolyline
 90
      133
 70
   128
 43
0.0
 10
437.1786384968
 20
-375.5552714448
 10
437.3038989305
 20
-369.4064171443
 10
437.6794062774
 20
-363.1268635147
 10
438.3042965268
 20
-356.7308436787
 10
439.1771682962
 20
-350.2328386193
 10
440.2960406836
 20
-343.6475722332
 10
441.6583638047
 20
-336.9899660839
 10
443.261082013
 20
-330.2750892174
 10
445.1005285327
 20
-323.5181718405
 10
447.1725729727
 20
-316.7344958278
 10
449.4724843491
 20
-309.9394585879
 10
451.9950891363
 20
-303.1484270697
 10
454.7346448262
 20
-296.3767985868
 10
457.6849558321
 20
-289.6399095734
 10
460.8393418785
 20
-282.9530173303
 10
464.1906538062
 20
-276.3312787329
 10
467.7312999141
 20
-269.7896863553
 10
471.4532617643
 20
-263.3430593458
 10
475.3481047188
 20
-257.0060069261
 10
479.407004281
 20
-250.7928827657
 10
483.6207724382
 20
-244.7177576077
 10
487.9798576606
 20
-238.7944010181
 10
492.4743870491
 20
-233.0362266357
 10
497.0941768714
 20
-227.4562678389
 10
501.8287641723
 20
-222.0671959997
 10
506.6674278472
 20
-216.8811744763
 10
511.5991991789
 20
-211.90999854
 10
516.6129092524
 20
-207.1648854914
 10
521.6972021263
 20
-202.6566252331
 10
526.8405559058
 20
-198.3953977615
 10
532.0313235728
 20
-194.3908712691
 10
537.2577448395
 20
-190.652122298
 10
542.5079800634
 20
-187.1876039934
 10
547.7701356014
 20
-184.0051801366
 10
553.0322911395
 20
-181.112048531
 10
558.2825263634
 20
-178.514774275
 10
563.5089476301
 20
-176.2192256952
 10
568.6997152971
 20
-174.2306194066
 10
573.8430690766
 20
-172.5534570066
 10
578.9273619505
 20
-171.1915176634
 10
583.941072024
 20
-170.1479242773
 10
588.8728433557
 20
-169.4249982364
 10
593.7115070306
 20
-169.0244175948
 10
598.4460943315
 20
-168.9470512929
 10
603.0658841538
 20
-169.193114296
 10
607.5604135423
 20
-169.7620155032
 10
611.9194987647
 20
-170.6524794232
 10
616.1332669219
 20
-171.8624914237
 10
620.1921664841
 20
-173.3893099004
 10
624.0870094386
 20
-175.2294723639
 10
627.8089712888
 20
-177.3788136914
 10
631.3496173967
 20
-179.8324630871
 10
634.7009293244
 20
-182.5848592941
 10
637.8553153708
 20
-185.6297749297
 10
640.8056263767
 20
-188.9603073619
 10
643.5451820666
 20
-192.5689121721
 10
646.0677868538
 20
-196.4474061982
 10
648.3676982302
 20
-200.587022285
 10
650.4397426702
 20
-204.9783667097
 10
652.2791891899
 20
-209.6115043409
 10
653.8819073982
 20
-214.4759221522
 10
655.2442305193
 20
-219.560623506
 10
656.3631029067
 20
-224.8540673308
 10
657.2359746761
 20
-230.3442760968
 10
657.8608649255
 20
-236.0188130081
 10
658.2363722724
 20
-241.8648150834
 10
658.3616327061
 20
-247.8690467655
 10
658.2363722724
 20
-254.017901066
 10
657.8608649255
 20
-260.2974546956
 10
657.2359746761
 20
-266.6934745317
 10
656.3631029067
 20
-273.1914795911
 10
655.2442305193
 20
-279.7767459772
 10
653.8819073982
 20
-286.4343521264
 10
652.2791891899
 20
-293.1492289929
 10
650.4397426702
 20
-299.9061463699
 10
648.3676982302
 20
-306.6898223826
 10
646.0677868538
 20
-313.4848596224
 10
643.5451820666
 20
-320.2758911407
 10
640.8056263767
 20
-327.0475196236
 10
637.8553153708
 20
-333.7844086369
 10
634.7009293244
 20
-340.47130088
 10
631.3496173967
 20
-347.0930394774
 10
627.8089712888
 20
-353.6346318551
 10
624.0870094386
 20
-360.0812588646
 10
620.1921664841
 20
-366.4183112843
 10
616.1332669219
 20
-372.6314354447
 10
611.9194987647
 20
-378.7065606026
 10
607.5604135423
 20
-384.6299171923
 10
603.0658841538
 20
-390.3880915747
 10
598.4460943315
 20
-395.9680503714
 10
593.7115070306
 20
-401.3571222107
 10
588.8728433557
 20
-406.543143734
 10
583.941072024
 20
-411.5143196703
 10
578.9273619505
 20
-416.259432719
 10
573.8430690766
 20
-420.7676929772
 10
568.6997152971
 20
-425.0289204489
 10
563.5089476301
 20
-429.0334469413
 10
558.2825263634
 20
-432.7721959123
 10
553.0322911395
 20
-436.2367142169
 10
547.7701356014
 20
-439.4191380737
 10
542.5079800634
 20
-442.3122696793
 10
537.2577448395
 20
-444.9095439354
 10
532.0313235728
 20
-447.2050925152
 10
526.8405559058
 20
-449.1936988037
 10
521.6972021263
 20
-450.8708612037
 10
516.6129092524
 20
-452.232800547
 10
511.5991991789
 20
-453.2763939331
 10
506.6674278472
 20
-453.9993199739
 10
501.8287641723
 20
-454.3999006155
 10
497.0941768714
 20
-454.4772669175
 10
492.4743870491
 20
-454.2312039143
 10
487.9798576606
 20
-453.6623027071
 10
483.6207724382
 20
-452.7718387872
 10
479.407004281
 20
-451.5618267866
 10
475.3481047188
 20
-450.03500831
 10
471.4532617643
 20
-448.1948458465
 10
467.7312999141
 20
-446.045504519
 10
464.1906538062
 20
-443.5918551232
 10
460.8393418785
 20
-440.8394589163
 10
457.6849558321
 20
-437.7945432807
 10
454.7346448262
 20
-434.4640108484
 10
451.9950891363
 20
-430.8554060382
 10
449.4724843491
 20
-426.9769120122
 10
447.1725729727
 20
-422.8372959253
 10
445.1005285327
 20
-418.4459515007
 10
443.261082013
 20
-413.8128138695
 10
441.6583638047
 20
-408.9483960582
 10
440.2960406836
 20
-403.8636947044
 10
439.1771682962
 20
-398.5702508795
 10
438.3042965268
 20
-393.0800421135
 10
437.6794062774
 20
-387.4055052023
 10
437.3038989305
 20
-381.5595031269
 10
437.1786384968
 20
-375.5552714448
  0
ARC
  5
E2
330
1F
100
AcDbEntity
  8
0
  6
Continuous
 62
     7
370
    25
100
AcDbCircle
 10
722.2987242307
 20
-276.7239523898
 30
0.0
 40
59.94131941409134
100
AcDbArc
 50
47.5977166432
 51
59.971200327
  0
ARC
  5
E3
330
1F
100
AcDbEntity
  8
0
  6
Continuous
 62
     7
370
    25
100
AcDbCircle
 10
604.7435654642
 20
-480.3504904343
 30
0.0
 40
59.93538553900918
100
AcDbArc
 50
240.0375414678
 51
251.5220724873
  0
ARC
  5
E4
330
1F
100
AcDbEntity
  8
0
  6
Continuous
 62
     7
370
    25
100
AcDbCircle
 10
716.8085696077
 20
-283.0950211234
 30
0.0
 40
68.34765984419356
100
AcDbArc
 50
27.7185031095
 51
50.5804666615
  0
ARC
  5
E5
330
1F
100
AcDbEntity
  8
0
  6
Continuous
 62
     7
370
    25
100
AcDbCircle
 10
607.3392148011
 20
-473.415617074
 30
0.0
 40
67.33936007409483
100
AcDbArc
 50
249.26747976
 51
271.9000970143
  0
ARC
  5
E6
330
1F
100
AcDbEntity
  8
0
  6
Continuous
 62
     7
370
    25
100
AcDbCircle
 10
762.96601754
 20
-325.3348161812
 30
0.0
 40
62.15959013075577
100
AcDbArc
 50
31.2263922832
 51
41.7209570139
  0
ARC
  5
E7
330
1F
100
AcDbEntity
  8
0
  6
Continuous
 62
     7
370
    25
100
AcDbCircle
 10
667.3006883236
 20
-490.405005477
 30
0.0
 40
63.0156262413003
100
AcDbArc
 50
258.3360653448
 51
270.4569171814
  0
LWPOLYLINE
  5
E8
330
1F
100
AcDbEntity
  8
0
  6
Continuous
 62
     7
370
    25
100
AcDbPolyline
 90
       69
 70
   128
 43
0.0
 10
902.285380498
 20
-334.5090425097
 10
902.7554442995
 20
-334.7836623906
 10
906.3639626386
 20
-337.1211285508
 10
909.7876723153
 20
-339.7571320591
 10
913.0189394817
 20
-342.6857923
 10
916.0505412217
 20
-345.9005777406
 10
918.8757182343
 20
-349.3943120187
 10
921.4881695659
 20
-353.1591952357
 10
923.8820684144
 20
-357.1868313345
 10
926.0520621303
 20
-361.4682341833
 10
927.9933248993
 20
-365.9938427899
 10
929.7015050593
 20
-370.753573008
 10
931.172809394
 20
-375.7367871267
 10
932.4039504491
 20
-380.9323759957
 10
933.3921676061
 20
-386.3287453386
 10
934.1352692289
 20
-391.9138522595
 10
934.631590517
 20
-397.6752364177
 10
934.8800356523
 20
-403.6000346706
 10
934.8800356523
 20
-409.6750346827
 10
934.631590517
 20
-415.8866815831
 10
934.1352692289
 20
-422.2211061029
 10
933.3921676061
 20
-428.6641798952
 10
932.4039504491
 20
-435.2015204814
 10
931.172809394
 20
-441.8185545563
 10
929.7015050593
 20
-448.5005005013
 10
927.9933248993
 20
-455.2324535521
 10
926.0520621303
 20
-461.9993964437
 10
923.8820684144
 20
-468.7862207074
 10
921.4881695659
 20
-475.5777935848
 10
918.8757182343
 20
-482.358948906
 10
916.0505412217
 20
-489.1145631318
 10
913.0189394817
 20
-495.8295614372
 10
909.7876723153
 20
-502.4889633375
 10
906.3639626386
 20
-509.077897898
 10
902.7554442995
 20
-515.5816706502
 10
898.9701673461
 20
-521.9857666337
 10
895.0165822215
 20
-528.2758960229
 10
890.9035081538
 20
-534.4380184585
 10
886.6401226193
 20
-540.4584038836
 10
882.2359402689
 20
-546.3235838723
 10
877.7007918552
 20
-552.0205098039
 10
873.0447873533
 20
-557.5364342271
 10
868.2783264982
 20
-562.8590751211
 10
863.4120408325
 20
-567.9765398439
 10
858.4567858037
 20
-572.877414866
 10
853.4236249596
 20
-577.5507748949
 10
848.3237851669
 20
-581.9861722237
 10
843.168647392
 20
-586.1737150588
 10
837.9697137731
 20
-590.1040743601
 10
832.7385858888
 20
-593.768459885
 10
827.4869367698
 20
-597.1587093498
 10
822.2264840632
 20
-600.267255252
 10
816.9689664895
 20
-603.0871506289
 10
811.7261158544
 20
-605.6121217167
 10
806.5096293902
 20
-607.8365109137
 10
801.3311501637
 20
-609.7553732617
 10
796.2022290456
 20
-611.3644253966
 10
791.1343154907
 20
-612.6600630383
 10
786.138712757
 20
-613.6394111765
 10
781.2265739542
 20
-614.300277683
 10
776.4088546288
 20
-614.6411928505
 10
771.6963101297
 20
-614.6613744114
 10
767.0994534614
 20
-614.3608127057
 10
762.6285368448
 20
-613.7401474842
 10
758.2935438146
 20
-612.8007819772
 10
754.1041470726
 20
-611.5448098864
 10
750.0696926825
 20
-609.9750245083
 10
746.1991789963
 20
-608.0949430678
 10
744.7981808733
 20
-607.3144397981
  0
LWPOLYLINE
  5
E9
330
1F
100
AcDbEntity
  8
0
  6
Continuous
 62
     1
370
    25
100
AcDbPolyline
 90
       67
 70
   128
 43
0.0
 10
762.719063007
 20
-232.4615757443
 10
763.7625241457
 20
-233.4344517023
 10
767.0295371081
 20
-236.7899752856
 10
770.0911052573
 20
-240.4269603678
 10
772.9411489106
 20
-244.3381728554
 10
775.5740203902
 20
-248.5158554969
 10
777.9844724135
 20
-252.9517217963
 10
780.1677423867
 20
-257.6369438536
 10
782.1194681108
 20
-262.5622405701
 10
783.835803686
 20
-267.717819865
 10
785.3133246808
 20
-273.0934486282
 10
786.5491018893
 20
-278.6784588113
 10
787.5406802575
 20
-284.4617565514
 10
788.2860894203
 20
-290.4318647577
 10
788.7838542379
 20
-296.5769253938
 10
789.0329842595
 20
-302.8847401619
 10
789.0329842595
 20
-309.342784952
 10
788.7838542379
 20
-315.9382391204
 10
788.2860894203
 20
-322.658006782
 10
787.5406802575
 20
-329.4887460885
 10
786.5491018893
 20
-336.4168958437
 10
785.3133246808
 20
-343.4287040215
 10
783.835803686
 20
-350.510242214
 10
782.1194681108
 20
-357.6474603836
 10
780.1677423867
 20
-364.826171656
 10
777.9844724135
 20
-372.0321435685
 10
775.5740203902
 20
-379.2510585353
 10
772.9411489106
 20
-386.4685898822
 10
770.0911052573
 20
-393.6703927296
 10
767.0295371081
 20
-400.8421891564
 10
763.7625241457
 20
-407.9697256165
 10
760.296556985
 20
-415.0388581091
 10
756.6385160989
 20
-422.0355400094
 10
752.7956612821
 20
-428.9458950717
 10
748.7756158458
 20
-435.7562083027
 10
744.5863718861
 20
-442.4529350873
 10
740.236242869
 20
-449.0227954815
 10
735.73386363
 20
-455.452749878
 10
731.0881798377
 20
-461.7300172559
 10
726.3084058468
 20
-467.8421481813
 10
721.4040405034
 20
-473.7769913487
 10
716.3848144611
 20
-479.5227848309
 10
711.2606954495
 20
-485.0681043689
 10
706.0418566643
 20
-490.4019424564
 10
700.7386609618
 20
-495.5137174641
 10
695.3616345174
 20
-500.3932766794
 10
689.9214536547
 20
-505.0309282439
 10
684.4289198207
 20
-509.4174799353
 10
678.8949385125
 20
-513.5442026629
 10
673.3304975451
 20
-517.4029038504
 10
667.7466433442
 20
-520.9859289542
 10
662.1544621772
 20
-524.2861722989
 10
656.5650567754
 20
-527.2970784052
 10
650.9895246014
 20
-530.0126545362
 10
645.4389361177
 20
-532.4275197445
 10
639.9243094326
 20
-534.5368830072
 10
634.4565961411
 20
-536.336551399
 10
629.0466503738
 20
-537.822960128
 10
623.7052143088
 20
-538.9931443967
 10
618.4428878785
 20
-539.8447933927
 10
613.2701261354
 20
-540.3762031391
 10
608.1971944714
 20
-540.5863266813
 10
603.2341659832
 20
-540.4747512728
 10
598.3908924967
 20
-540.0416907675
 10
593.6769940301
 20
-539.2880038703
 10
589.1018271837
 20
-538.2151880501
 10
585.7476861487
 20
-537.1959564693
  0
LWPOLYLINE
  5
EA
330
1F
100
AcDbEntity
  8
0
  6
Continuous
 62
     1
370
    25
100
AcDbPolyline
 90
       34
 70
   128
 43
0.0
 10
552.8003725079
 20
-436.3830734129
 10
552.8119945014
 20
-436.0878213638
 10
553.1875018482
 20
-429.8082677342
 10
553.8123920977
 20
-423.4122478982
 10
554.685263867
 20
-416.9142428387
 10
555.8041362545
 20
-410.3289764526
 10
557.1664593756
 20
-403.6713703034
 10
558.7691775839
 20
-396.9564934369
 10
560.6086241036
 20
-390.19957606
 10
562.6806685435
 20
-383.4159000472
 10
564.9805799199
 20
-376.6208628074
 10
567.5031847071
 20
-369.8298312891
 10
570.242740397
 20
-363.0582028062
 10
573.1930514029
 20
-356.3213137929
 10
576.3474374493
 20
-349.6344215498
 10
579.698749377
 20
-343.0126829524
 10
583.239395485
 20
-336.4710905747
 10
586.9613573352
 20
-330.0244635653
 10
590.8562002896
 20
-323.6874111455
 10
594.9150998519
 20
-317.4742869851
 10
599.128868009
 20
-311.3991618272
 10
603.4879532315
 20
-305.4758052375
 10
607.98248262
 20
-299.7176308551
 10
612.6022724422
 20
-294.1376720584
 10
617.3368597431
 20
-288.7486002191
 10
622.1755234181
 20
-283.5625786958
 10
627.1072947497
 20
-278.5914027595
 10
632.1210048232
 20
-273.8462897108
 10
637.2052976971
 20
-269.3380294526
 10
642.3486514767
 20
-265.0768019809
 10
647.5394191437
 20
-261.0722754885
 10
652.7658404104
 20
-257.3335265175
 10
658.0160756343
 20
-253.8690082129
 10
658.2479916317
 20
-253.722654366
  0
LWPOLYLINE
  5
EB
330
1F
100
AcDbEntity
  8
0
  6
Continuous
 62
     1
370
    25
100
AcDbPolyline
 90
       57
 70
   128
 43
0.0
 10
777.3128887243
 20
-251.3046141676
 10
778.3019277449
 20
-253.2060832136
 10
780.4843863912
 20
-257.8895713393
 10
782.4353956189
 20
-262.8130398358
 10
784.1510884547
 20
-267.9667087876
 10
785.6280615404
 20
-273.3403450865
 10
786.8633751336
 20
-278.9232837253
 10
787.8545847169
 20
-284.7044369255
 10
788.5997199251
 20
-290.6723275962
 10
789.0973056186
 20
-296.8151060664
 10
789.3463408098
 20
-303.1205816417
 10
789.3463408098
 20
-309.5762309738
 10
789.0973056186
 20
-316.1692364605
 10
788.5997199251
 20
-322.8865151438
 10
787.8545847169
 20
-329.7147206137
 10
786.8633751336
 20
-336.640300039
 10
785.6280615404
 20
-343.6495013935
 10
784.1510884547
 20
-350.7284145195
 10
782.4353956189
 20
-357.8629802548
 10
780.4843863912
 20
-365.039036058
 10
778.3019277449
 20
-372.242337301
 10
775.8923713421
 20
-379.4585694387
 10
773.2604797767
 20
-386.6734179645
 10
770.4114897946
 20
-393.8725562489
 10
767.3510596103
 20
-401.0416881204
 10
764.0852583698
 20
-408.1665782833
 10
760.620576688
 20
-415.2330888205
 10
756.9638845011
 20
-422.2271852736
 10
753.1224521404
 20
-429.1349792304
 10
749.1039081856
 20
-435.9427465725
 10
744.9162183909
 20
-442.6369943938
 10
740.5677014908
 20
-449.2044275418
 10
736.0669923206
 20
-455.6319942415
 10
731.4230312807
 20
-461.9069286809
 10
726.6450327259
 20
-468.0167935935
 10
721.7424849653
 20
-473.949431589
 10
716.725123921
 20
-479.6930898664
 10
711.602906786
 20
-485.2363502494
 10
706.3860014875
 20
-490.5682204403
 10
701.0847708818
 20
-495.6780944753
 10
695.7097411443
 20
-500.5558439762
 10
690.271578062
 20
-505.1917831676
 10
684.7810830818
 20
-509.5766954923
 10
679.2491551153
 20
-513.7018921636
 10
673.6867780264
 20
-517.5591585512
 10
668.104994948
 20
-521.1408663474
 10
662.5148885255
 20
-524.4398754654
 10
656.9275572096
 20
-527.4496572318
 10
651.3540935239
 20
-530.1642339284
 10
645.8055636504
 20
-532.5782027442
 10
640.2929837216
 20
-534.686785964
 10
634.8272987472
 20
-536.4857944644
 10
629.4193602236
 20
-537.9716406391
 10
624.0799050604
 20
-539.1413870671
 10
618.8195331902
 20
-539.9927229357
 10
613.6486891287
 20
-540.5239381836
 10
609.5719772546
 20
-540.717951261
  0
LWPOLYLINE
  5
EC
330
1F
100
AcDbEntity
  8
0
  6
Continuous
 62
     1
370
    25
100
AcDbPolyline
 90
       55
 70
   128
 43
0.0
 10
816.1202712061
 20
-293.1099816211
 10
817.6810638369
 20
-295.8065226415
 10
819.85196371
 20
-300.0897172259
 10
821.7940378058
 20
-304.6172209821
 10
823.5029344622
 20
-309.3789375965
 10
824.9748499262
 20
-314.3642384827
 10
826.2064967435
 20
-319.562002323
 10
827.195135369
 20
-324.9606241966
 10
827.9385425565
 20
-330.54807033
 10
828.4350745788
 20
-336.3118606125
 10
828.6836145445
 20
-342.2391410253
 10
828.6836145445
 20
-348.3166809834
 10
828.4350745788
 20
-354.5309195324
 10
827.9385425565
 20
-360.8679934852
 10
827.195135369
 20
-367.3137592874
 10
826.2064967435
 20
-373.8538390214
 10
824.9748499262
 20
-380.4736320082
 10
823.5029344622
 20
-387.1583703156
 10
821.7940378058
 20
-393.8931370119
 10
819.85196371
 20
-400.6629117911
 10
817.6810638369
 20
-407.4525740174
 10
815.2861640007
 20
-414.2469878901
 10
812.6726168511
 20
-421.0309781142
 10
809.8462597266
 20
-427.7894211513
 10
806.8133830445
 20
-434.5072300079
 10
803.5807724473
 20
-441.1694089925
 10
800.1556297777
 20
-447.7610993361
 10
796.5455994204
 20
-454.2675883199
 10
792.7587419602
 20
-460.6743609845
 10
788.8035025718
 20
-466.9671244619
 10
784.6887110201
 20
-473.1318201428
 10
780.4235395128
 20
-479.1547210116
 10
776.0175185062
 20
-485.0223616857
 10
771.4804734843
 20
-490.7216600835
 10
766.8225249591
 20
-496.2398991733
 10
762.054067397
 20
-501.5647634734
 10
757.1857481458
 20
-506.6843633852
 10
752.2284226531
 20
-511.5872975466
 10
747.1931571007
 20
-516.262602642
 10
742.0911862581
 20
-520.6998507376
 10
736.9338910913
 20
-524.8891500395
 10
731.7327842755
 20
-528.8211532576
 10
726.4994693649
 20
-532.4870690089
 10
721.2456243293
 20
-535.8787443257
 10
715.9829724133
 20
-538.9885841393
 10
710.723256618
 20
-541.8096633506
 10
705.4782136883
 20
-544.3356810099
 10
700.2595461246
 20
-546.5610008088
 10
695.0789002867
 20
-548.4806637209
 10
689.9478375819
 20
-550.0903924669
 10
684.8778035137
 20
-551.38657288
 10
679.880114511
 20
-552.3663345144
 10
674.9659210493
 20
-553.0274745947
 10
670.1461892119
 20
-553.3685173311
 10
667.803214293
 20
-553.4186279585
  0
LWPOLYLINE
  5
ED
330
1F
100
AcDbEntity
  8
0
  6
Continuous
 62
     1
370
    25
100
AcDbPolyline
 90
       32
 70
   128
 43
0.0
 10
553.8640931099
 20
-435.7071429742
 10
554.2031539695
 20
-430.2735738948
 10
554.8273909428
 20
-423.8842848544
 10
555.6993354815
 20
-417.3931238741
 10
556.8170277571
 20
-410.814788236
 10
558.1779284221
 20
-404.1641842956
 10
559.7789502198
 20
-397.4563826167
 10
561.6164685212
 20
-390.706570824
 10
563.686321325
 20
-383.9300429568
 10
565.9838197943
 20
-377.1421538418
 10
568.50376933
 20
-370.3582704255
 10
571.2404379608
 20
-363.5937717718
 10
574.1876511734
 20
-356.8639699819
 10
577.3387128871
 20
-350.1841193133
 10
580.6864950162
 20
-343.5693523085
 10
584.2234163964
 20
-337.0346432914
 10
587.9414585897
 20
-330.5948053268
 10
591.8322027631
 20
-324.2644202611
 10
595.8868296886
 20
-318.0578387225
 10
600.09616189
 20
-311.989113204
 10
604.4506583743
 20
-306.0719828539
 10
608.940456779
 20
-300.3198734796
 10
613.5553839086
 20
-294.745788042
 10
618.2849873447
 20
-289.3623796627
 10
623.1185565193
 20
-284.1818299523
 10
628.0451385203
 20
-279.2158763882
 10
633.053569701
 20
-274.4757697319
 10
638.1325099251
 20
-269.9722420924
 10
643.2704517859
 20
-265.7155016044
 10
648.4557561677
 20
-261.7151997312
 10
653.676675295
 20
-257.9803814568
 10
658.1945975015
 20
-254.9818249182
  0
LWPOLYLINE
  5
EE
330
1F
100
AcDbEntity
  8
0
  6
Continuous
 62
     1
370
    25
100
AcDbPolyline
 90
       62
 70
   128
 43
0.0
 10
807.7989528526
 20
-282.2221868152
 10
810.1674898351
 20
-284.775593257
 10
812.9926668478
 20
-288.2693275351
 10
815.6051181793
 20
-292.0342107521
 10
817.9990170279
 20
-296.0618468509
 10
820.1690107437
 20
-300.3432496997
 10
822.1102735127
 20
-304.8688583063
 10
823.8184536727
 20
-309.6285885244
 10
825.2897580074
 20
-314.6118026431
 10
826.5208990625
 20
-319.8073915121
 10
827.5091162196
 20
-325.203760855
 10
828.2522178424
 20
-330.7888677759
 10
828.7485391304
 20
-336.5502519341
 10
828.9969842657
 20
-342.475050187
 10
828.9969842657
 20
-348.5500501991
 10
828.7485391304
 20
-354.7616970995
 10
828.2522178424
 20
-361.0961216194
 10
827.5091162196
 20
-367.5391954116
 10
826.5208990625
 20
-374.0765359978
 10
825.2897580074
 20
-380.6935700727
 10
823.8184536727
 20
-387.3755160177
 10
822.1102735127
 20
-394.1074690686
 10
820.1690107437
 20
-400.8744119601
 10
817.9990170279
 20
-407.6612362239
 10
815.6051181793
 20
-414.4528091012
 10
812.9926668478
 20
-421.2339644224
 10
810.1674898351
 20
-427.9895786482
 10
807.1358880951
 20
-434.7045769536
 10
803.9046209287
 20
-441.3639788539
 10
800.480911252
 20
-447.9529134144
 10
796.8723929129
 20
-454.4566861666
 10
793.0871159595
 20
-460.8607821501
 10
789.1335308349
 20
-467.1509115393
 10
785.0204567672
 20
-473.3130339749
 10
780.7570712327
 20
-479.3334194
 10
776.3528888824
 20
-485.1985993888
 10
771.8177404686
 20
-490.8955253203
 10
767.1617359668
 20
-496.4114497435
 10
762.3952751117
 20
-501.7340906375
 10
757.5289894459
 20
-506.8515553603
 10
752.5737344171
 20
-511.7524303824
 10
747.540573573
 20
-516.4257904113
 10
742.4407337804
 20
-520.8611877401
 10
737.2855960054
 20
-525.0487305752
 10
732.0866623865
 20
-528.9790898765
 10
726.8555345022
 20
-532.6434754014
 10
721.6038853832
 20
-536.0337248662
 10
716.3434326767
 20
-539.1422707684
 10
711.0859151029
 20
-541.9621661453
 10
705.8430644679
 20
-544.4871372331
 10
700.6265780036
 20
-546.7115264301
 10
695.4480987771
 20
-548.6303887781
 10
690.319177659
 20
-550.2394409131
 10
685.2512641042
 20
-551.5350785547
 10
680.2556613704
 20
-552.514426693
 10
675.3435225677
 20
-553.1752931995
 10
670.5258032422
 20
-553.5162083669
 10
665.8132587431
 20
-553.5363899278
 10
661.2164020748
 20
-553.2358282221
 10
656.7454854582
 20
-552.6151630006
 10
652.410492428
 20
-551.6757974937
 10
652.2679939332
 20
-551.6389047142
  0
ENDSEC
  0
SECTION
  2
OBJECTS
  0
DICTIONARY
  5
C
330
0
100
AcDbDictionary
281
     1
  3
ACAD_GROUP
350
D
  3
ACAD_LAYOUT
350
1A
  3
ACAD_MLINESTYLE
350
17
  3
ACAD_PLOTSETTINGS
350
19
  3
ACAD_PLOTSTYLENAME
350
E
  3
ACAD_SCALELIST
350
47
  0
DICTIONARY
  5
D
102
{ACAD_REACTORS
330
C
102
}
330
C
100
AcDbDictionary
281
     1
  0
DICTIONARY
  5
1A
102
{ACAD_REACTORS
330
C
102
}
330
C
100
AcDbDictionary
281
     1
  3
Layout1
350
1E
  3
Layout2
350
26
  3
Model
350
22
  0
DICTIONARY
  5
17
102
{ACAD_REACTORS
330
C
102
}
330
C
100
AcDbDictionary
281
     1
  3
Standard
350
18
  0
DICTIONARY
  5
19
102
{ACAD_REACTORS
330
C
102
}
330
C
100
AcDbDictionary
281
     1
  0
ACDBDICTIONARYWDFLT
  5
E
102
{ACAD_REACTORS
330
C
102
}
330
C
100
AcDbDictionary
281
     1
  3
Normal
350
F
100
AcDbDictionaryWithDefault
340
F
  0
DICTIONARY
  5
47
102
{ACAD_REACTORS
330
C
102
}
330
C
100
AcDbDictionary
281
     1
  3
A0
350
48
  3
A1
350
49
  3
A2
350
4A
  3
A3
350
4B
  3
A4
350
4C
  3
A5
350
4D
  3
A6
350
4E
  3
A7
350
4F
  3
A8
350
50
  3
A9
350
51
  3
B0
350
52
  3
B1
350
53
  3
B2
350
54
  3
B3
350
55
  3
B4
350
56
  3
B5
350
57
  3
B6
350
58
  3
B7
350
59
  3
B8
350
5A
  3
B9
350
5B
  3
C0
350
5C
  3
C1
350
5D
  3
C2
350
5E
  3
C3
350
5F
  3
C4
350
60
  3
C5
350
61
  3
C6
350
62
  3
C7
350
63
  3
C8
350
64
  3
C9
350
65
  3
D0
350
66
  3
D1
350
67
  3
D2
350
68
  0
LAYOUT
  5
1E
102
{ACAD_REACTORS
330
1A
102
}
330
1A
100
AcDbPlotSettings
  1

  2
none_device
  4

  6

 40
0.0
 41
0.0
 42
0.0
 43
0.0
 44
0.0
 45
0.0
 46
0.0
 47
0.0
 48
0.0
 49
0.0
140
0.0
141
0.0
142
1.0
143
1.0
 70
   688
 72
     1
 73
     0
 74
     5
  7

 75
    16
147
1.0
148
0.0
149
0.0
100
AcDbLayout
  1
Layout1
 70
     1
 71
     1
 10
0.0
 20
0.0
 11
420.0
 21
297.0
 12
0.0
 22
0.0
 32
0.0
 14
1.0000000000E+20
 24
1.0000000000E+20
 34
1.0000000000E+20
 15
-1.0000000000E+20
 25
-1.0000000000E+20
 35
-1.0000000000E+20
146
0.0
 13
0.0
 23
0.0
 33
0.0
 16
1.0
 26
0.0
 36
0.0
 17
0.0
 27
1.0
 37
0.0
 76
     0
330
1B
  0
LAYOUT
  5
26
102
{ACAD_REACTORS
330
1A
102
}
330
1A
100
AcDbPlotSettings
  1

  2
none_device
  4

  6

 40
0.0
 41
0.0
 42
0.0
 43
0.0
 44
0.0
 45
0.0
 46
0.0
 47
0.0
 48
0.0
 49
0.0
140
0.0
141
0.0
142
1.0
143
1.0
 70
   688
 72
     1
 73
     0
 74
     5
  7

 75
    16
147
1.0
148
0.0
149
0.0
100
AcDbLayout
  1
Layout2
 70
     1
 71
     2
 10
0.0
 20
0.0
 11
0.0
 21
0.0
 12
0.0
 22
0.0
 32
0.0
 14
0.0
 24
0.0
 34
0.0
 15
0.0
 25
0.0
 35
0.0
146
0.0
 13
0.0
 23
0.0
 33
0.0
 16
1.0
 26
0.0
 36
0.0
 17
0.0
 27
1.0
 37
0.0
 76
     0
330
23
  0
LAYOUT
  5
22
102
{ACAD_REACTORS
330
1A
102
}
330
1A
100
AcDbPlotSettings
  1

  2
none_device
  4
Letter_(8.50_x_11.00_Inches)
  6

 40
6.35
 41
6.35
 42
6.35000508
 43
6.35000508
 44
215.9
 45
279.4
 46
0.0
 47
0.0
 48
0.0
 49
0.0
140
0.0
141
0.0
142
1.0
143
1.0
 70
  1712
 72
     1
 73
     0
 74
     0
  7

 75
     0
147
1.0
148
0.0
149
0.0
100
AcDbLayout
  1
Model
 70
     1
 71
     0
 10
0.0
 20
0.0
 11
279.4
 21
215.9
 12
0.0
 22
0.0
 32
0.0
 14
0.0
 24
0.0
 34
0.0
 15
279.4
 25
215.9
 35
0.0
146
0.0
 13
0.0
 23
0.0
 33
0.0
 16
1.0
 26
0.0
 36
0.0
 17
0.0
 27
1.0
 37
0.0
 76
     0
330
1F
331
29
  0
MLINESTYLE
  5
18
102
{ACAD_REACTORS
330
17
102
}
330
17
100
AcDbMlineStyle
  2
Standard
 70
     0
  3

 62
   256
 51
90.0
 52
90.0
 71
     2
 49
0.5
 62
   256
  6
BYLAYER
 49
-0.5
 62
   256
  6
BYLAYER
  0
ACDBPLACEHOLDER
  5
F
102
{ACAD_REACTORS
330
E
102
}
330
E
  0
SCALE
  5
48
102
{ACAD_REACTORS
330
47
102
}
330
47
100
AcDbScale
 70
     0
300
1:1
140
1.0
141
1.0
290
     1
  0
SCALE
  5
49
102
{ACAD_REACTORS
330
47
102
}
330
47
100
AcDbScale
 70
     0
300
1:2
140
1.0
141
2.0
290
     0
  0
SCALE
  5
4A
102
{ACAD_REACTORS
330
47
102
}
330
47
100
AcDbScale
 70
     0
300
1:4
140
1.0
141
4.0
290
     0
  0
SCALE
  5
4B
102
{ACAD_REACTORS
330
47
102
}
330
47
100
AcDbScale
 70
     0
300
1:5
140
1.0
141
5.0
290
     0
  0
SCALE
  5
4C
102
{ACAD_REACTORS
330
47
102
}
330
47
100
AcDbScale
 70
     0
300
1:8
140
1.0
141
8.0
290
     0
  0
SCALE
  5
4D
102
{ACAD_REACTORS
330
47
102
}
330
47
100
AcDbScale
 70
     0
300
1:10
140
1.0
141
10.0
290
     0
  0
SCALE
  5
4E
102
{ACAD_REACTORS
330
47
102
}
330
47
100
AcDbScale
 70
     0
300
1:16
140
1.0
141
16.0
290
     0
  0
SCALE
  5
4F
102
{ACAD_REACTORS
330
47
102
}
330
47
100
AcDbScale
 70
     0
300
1:20
140
1.0
141
20.0
290
     0
  0
SCALE
  5
50
102
{ACAD_REACTORS
330
47
102
}
330
47
100
AcDbScale
 70
     0
300
1:30
140
1.0
141
30.0
290
     0
  0
SCALE
  5
51
102
{ACAD_REACTORS
330
47
102
}
330
47
100
AcDbScale
 70
     0
300
1:40
140
1.0
141
40.0
290
     0
  0
SCALE
  5
52
102
{ACAD_REACTORS
330
47
102
}
330
47
100
AcDbScale
 70
     0
300
1:50
140
1.0
141
50.0
290
     0
  0
SCALE
  5
53
102
{ACAD_REACTORS
330
47
102
}
330
47
100
AcDbScale
 70
     0
300
1:100
140
1.0
141
100.0
290
     0
  0
SCALE
  5
54
102
{ACAD_REACTORS
330
47
102
}
330
47
100
AcDbScale
 70
     0
300
2:1
140
2.0
141
1.0
290
     0
  0
SCALE
  5
55
102
{ACAD_REACTORS
330
47
102
}
330
47
100
AcDbScale
 70
     0
300
4:1
140
4.0
141
1.0
290
     0
  0
SCALE
  5
56
102
{ACAD_REACTORS
330
47
102
}
330
47
100
AcDbScale
 70
     0
300
8:1
140
8.0
141
1.0
290
     0
  0
SCALE
  5
57
102
{ACAD_REACTORS
330
47
102
}
330
47
100
AcDbScale
 70
     0
300
10:1
140
10.0
141
1.0
290
     0
  0
SCALE
  5
58
102
{ACAD_REACTORS
330
47
102
}
330
47
100
AcDbScale
 70
     0
300
100:1
140
100.0
141
1.0
290
     0
  0
SCALE
  5
59
102
{ACAD_REACTORS
330
47
102
}
330
47
100
AcDbScale
 70
     0
300
1/128" = 1'-0"
140
0.0078125
141
12.0
290
     0
  0
SCALE
  5
5A
102
{ACAD_REACTORS
330
47
102
}
330
47
100
AcDbScale
 70
     0
300
1/64" = 1'-0"
140
0.015625
141
12.0
290
     0
  0
SCALE
  5
5B
102
{ACAD_REACTORS
330
47
102
}
330
47
100
AcDbScale
 70
     0
300
1/32" = 1'-0"
140
0.03125
141
12.0
290
     0
  0
SCALE
  5
5C
102
{ACAD_REACTORS
330
47
102
}
330
47
100
AcDbScale
 70
     0
300
1/16" = 1'-0"
140
0.0625
141
12.0
290
     0
  0
SCALE
  5
5D
102
{ACAD_REACTORS
330
47
102
}
330
47
100
AcDbScale
 70
     0
300
3/32" = 1'-0"
140
0.09375
141
12.0
290
     0
  0
SCALE
  5
5E
102
{ACAD_REACTORS
330
47
102
}
330
47
100
AcDbScale
 70
     0
300
1/8" = 1'-0"
140
0.125
141
12.0
290
     0
  0
SCALE
  5
5F
102
{ACAD_REACTORS
330
47
102
}
330
47
100
AcDbScale
 70
     0
300
3/16" = 1'-0"
140
0.1875
141
12.0
290
     0
  0
SCALE
  5
60
102
{ACAD_REACTORS
330
47
102
}
330
47
100
AcDbScale
 70
     0
300
1/4" = 1'-0"
140
0.25
141
12.0
290
     0
  0
SCALE
  5
61
102
{ACAD_REACTORS
330
47
102
}
330
47
100
AcDbScale
 70
     0
300
3/8" = 1'-0"
140
0.375
141
12.0
290
     0
  0
SCALE
  5
62
102
{ACAD_REACTORS
330
47
102
}
330
47
100
AcDbScale
 70
     0
300
1/2" = 1'-0"
140
0.5
141
12.0
290
     0
  0
SCALE
  5
63
102
{ACAD_REACTORS
330
47
102
}
330
47
100
AcDbScale
 70
     0
300
3/4" = 1'-0"
140
0.75
141
12.0
290
     0
  0
SCALE
  5
64
102
{ACAD_REACTORS
330
47
102
}
330
47
100
AcDbScale
 70
     0
300
1" = 1'-0"
140
1.0
141
12.0
290
     0
  0
SCALE
  5
65
102
{ACAD_REACTORS
330
47
102
}
330
47
100
AcDbScale
 70
     0
300
1-1/2" = 1'-0"
140
1.5
141
12.0
290
     0
  0
SCALE
  5
66
102
{ACAD_REACTORS
330
47
102
}
330
47
100
AcDbScale
 70
     0
300
3" = 1'-0"
140
3.0
141
12.0
290
     0
  0
SCALE
  5
67
102
{ACAD_REACTORS
330
47
102
}
330
47
100
AcDbScale
 70
     0
300
6" = 1'-0"
140
6.0
141
12.0
290
     0
  0
SCALE
  5
68
102
{ACAD_REACTORS
330
47
102
}
330
47
100
AcDbScale
 70
     0
300
1'-0" = 1'-0"
140
12.0
141
12.0
290
     0
  0
ENDSEC
  0
EOF
